Song name
# A B C D E F G H I J K L M N O P Q R S T U V W X Y Z

Washya - Righteous Truth tab

-----------------------------------------------------------------------------
                       Righteous Truth - Washya
-----------------------------------------------------------------------------
Tuning: Standard (ebgDAE)
Intro
e|------------------------------------------------------|
b|------------------------------------------------------|
g|------------------------------------------------------|
D|---------------------888------------------------------|
A|-555---------3-5-6-8-666---------1-3-4-6-666-xx-444-2-|
E|-333-3-5-6-8-------------1-3-4-6---------444-xx-222-0-|
pm     . . . . . . . .     . . . . . . . . 

Verses          D, C, F, E, G.
e|---2---------------------------------------3-----------3-3--|
b|-----3------1-----------------1-----------3----------3---3--|
g|-------2------0-----------------2------------------5-----5--|
D|----------------3---------3-------2-----2--------5-------5--|
A|------------------2-----3-------------3--------3---------3--|
E|-0--------0---------0-1-----0-------0--------0-----------0--|
pm .        .         .       .       .        . 

Chorus
e|----------------------------------------|
b|----------------------------------------|
g|----------------------------------------|
D|----------------------------------------|
A|-2222-3-22345-2222-4-22457-2222-7282574-|
E|-0000-1-00123-0000-2-00235-0000-5060356-|

Ending Riff (really cool riff)
e|--------------------------------------------------------------|
b|--------------------------------------------------------------|
g|--------------------------------------------------------------|
D|-----------------------------11-1010---88-77----66-55---------|
A|-22-9/88/77/66/55/44/33/2-22-9--8-8-99-66-55-77-44-33-44-33-2-|
E|-00-7/66/55/44/33/22/11/0-00--------77-------55-------22-11-0-|
Tap to rate this tab
 
# A B C D E F G H I J K L M N O P Q R S T U V W X Y Z