Song name
# A B C D E F G H I J K L M N O P Q R S T U V W X Y Z

Washya - Im Frustrated tab

-----------------------------------------------------------------------------
                   I'm Frustrated - Washya
-----------------------------------------------------------------------------
Tuning: Drop D (DADGBE)

Intro   play 5 times          Then
e|----------------------------|------------------|
b|----------------------------|------------------|
g|-----0-3-0-0-5h6-0-3-0-0-3-5|------------------|
D|-0~-------------------------|------------------|
A|-0~-------------------------|-000-1h2-0000-3h4-|
D|-0~-------------------------|-000-1h2-0000-3h4-|

Verses
e|---------------------------------------------------|
b|---------------------------------------------------|
g|---------------------------------------------------|
D|---------------------------------------------------|
A|-0000-0-0-0-0-00--0000-0-0-0-0-00--0000-0-0-0-0-00-|
D|-0000-0-0-0-0-00--0000-0-0-0-0-00--0000-0-0-0-0-00-|
Pm .... . . . . ..  .... . . . . ..  .... . . . . .. 

Chorus
e|-----------------------------------------|
b|-----------------------------------------|
g|-----------------------------------------|
D|-------------5-4-------------5-4-8-7-----|
A|-6~-5~-1~-3~-3-2-1-3-6-5-1-3-3-2-6-5-1-3-|
D|-6~-5~-1~-3~-----1-3-6-5-1-3---------1-3-|
Tap to rate this tab
# A B C D E F G H I J K L M N O P Q R S T U V W X Y Z