Song name
# A B C D E F G H I J K L M N O P Q R S T U V W X Y Z

Washya - Land Of Lies tab

-----------------------------------------------------------------------------
                    Land Of Lies - Washya
-----------------------------------------------------------------------------
Tuning: Standard (ebgDAE)
Intro
e|----------------------------------------|
b|----------------------------------------|
g|----------------------------------------|
D|-----------------6-5-3------------------|
A|-2222-3-2222-3-4-------6-2222-3-222-4-3-|
E|-0000-1-0000-1-2---------0000-1-000-2-1-|
pm ....   ....             ....   ... 

Main Riff/Chorus
e|---------------------------------------------------------|
b|---------------------------------------------------------|
g|---------------------------------------------------------|
D|-----------------6-5-3-------------------3-6-3-----------|
A|-222-4-3-222-222------------222-3-22-3-4-------6-333-5-2-|
E|-000-2-1-000-000--------6-5-000-1-00-1-2---------111-3-0-|
pm ...     ... ...            ...   ..                        

Verses
e|-----------------------------------------------------------------|
b|-----------------------------------------------------------------|
g|-----------------------------------------------------------------|
D|------2h3p2p0--------------------3-----------------3-5-----------|
A|-4-22---------2-2222-7-5-3-5-3-5---5-5-3---------2-1-3-3-6-5-3-7-|
E|-2-00---------0-0000-5-3-------------3-1-3h4p3-1-0-------------5-|
pm                ....     . . . . . .                   . . . .   
Tap to rate this tab
 
# A B C D E F G H I J K L M N O P Q R S T U V W X Y Z