Song name
# A B C D E F G H I J K L M N O P Q R S T U V W X Y Z

Washya - Shattered And Smeared tab

-----------------------------------------------------------------------------
                   Shattered and Smeared - Washya 
-----------------------------------------------------------------------------
Tuning: D Tuning (DAFCGD)
D|-------------------------------|
A|-------------------------------|
F|-------------------------------|
G|-7777-777-5555-555-777-7-5-4-3-|
C|-7777-777-5555-555-777-7-5-4-3-|
D|-5555-555-3333-333-555-5-3-2-1-|
Pm ....  .. ..   ... ..  . . . . 

Verses
D|--------------------------|
A|--------------------------|
F|-----4-3--------4-3-------|
C|-333-4-3-22-333-4-3-2-3-4-|
G|-333-2-1-22-333-2-1-2-3-4-|
D|-111-----00-111-----0-1-2-|
Pm ...     .. ...     . . . 

Chorus
D|------------------------------------------------------------|
A|------------------------------------------------------------|
F|-----------------------------------------------2~-----------|
C|-------------------4-5-5-------------------1-3--------------|
G|---------1p0-------2-3-3-5-4-2-3-5----------------1p0-5-4-2-|
D|-0-0-1-3-----3-1-0-------3-2-0-1-3-0-0-1-3------------3-2-0-|
Pm . .                               . .          

Guitar Solo 
D|-------------------------------16----16----17----17----15----15----------|
A|--------13~\----------15~\-/15----15----15----15----15----15----16p15h16-|
F|-/12-14--------/14-16----------------------------------------------------|
C|-------------------------------------------------------------------------|
G|-------------------------------------------------------------------------|
D|-------------------------------------------------------------------------|

D|------------------------------------------------------------15-16-18-|
A|-15h16p15p13~--------------------14-15-17----------14-15-17----------|
F|------------------------12-13-15----------14-15-17-------------------|
C|--------------/12-13-15----------------------------------------------|
G|---------------------------------------------------------------------|
D|---------------------------------------------------------------------|

D|----------15-16-18-19b--------7b-7b-----------15-17-18----------15-17-18-|
A|-15-16-18--------------/7b-7b-4b-4b-/15-17-18----------15-17-18----------|
F|------------------------4b-4b--------------------------------------------|
C|-------------------------------------------------------------------------|
G|-------------------------------------------------------------------------|
D|-------------------------------------------------------------------------|

D|-----------15-17-18-19-20b-22~/-|
A|-15-17-18-----------------------|
F|--------------------------------|
C|--------------------------------|
G|--------------------------------|
D|--------------------------------|

Tablature
/ = slide up
~ = let ring
b = bend
pm = palm mute
\ = slide down
Tap to rate this tab
# A B C D E F G H I J K L M N O P Q R S T U V W X Y Z