Song name
# A B C D E F G H I J K L M N O P Q R S T U V W X Y Z

Washya - Outspoken tab

-------------------------------------------------------------------------------
                      Outspoken - Washya
-------------------------------------------------------------------------------
Tuning: Drop B (BF#BEG#C#)
B|-----------------------------------------------------------------|
F#|----------------------------------------------------------------|
B|-----------------------------------------------------------------|
E|-----------------------------------------------------------------|
G#|-000-0--000-0--000-0-0000-1b-1b-1bp0-111-0-111-0-1111-3b-3bp2p0-|
C#|-000-0--000-0--000-0-0000-1b-1b-1bp0-111-0-111-0-1111-3b-3bp2p0-|
pm  ... .  ... .  ... . ....          . ... . ... . ....         

Verses
B|------------------------------------------------------------------|
F#|-----------------------------------------------------------------|
B|-------------------3b-3b-3b------------------------5b-5b-5b-------|
E|-------------------5b-5b-5b-3----------------------7b-7b-7b-5-----|
G#|-222-1-222-1-2222------------5-3-666-5-666-5-6666------------7-5-|
C#|-222-1-222-1-2222----------------666-5-666-5-6666--------------5-|
pm  ... . ... . ....                ... . ... . ....              . 

Chorus
B|--------------------------------------------------------------------------|
F#|-------------------------------------------------------------------------|
B|--------------------------------------------------------------------------|
E|---------------------------555------------333-----------------------------|
G#|-66666666-3333333-5555555-333-5-2-000000-111-555-8-66666-3-5-2-222-0-1-0-|
C#|-66666666-3333333-5555555-----5-2-000000-----555-8-66666-3-5-2-222-0-1-0-|
                                      ......                          . . . 
Tap to rate this tab
# A B C D E F G H I J K L M N O P Q R S T U V W X Y Z