Song name
# A B C D E F G H I J K L M N O P Q R S T U V W X Y Z

Washya - Colour Me tab

-----------------------------------------------------------------------------
                     Colour Me - Washya
-----------------------------------------------------------------------------
Tuning: Standard (ebgDAE)
Intro/Verses
e|-----------------------------------------------|
b|-----------------------------------------------|
g|-----------------------------------------------|
D|-----------------------------------------------|
A|----5---4---2------5---4---2-2-5-4-2-4-5-4-2---|
E|-22---2---2---2-22---2---2-------------------4-|
pm .. . . . . . . .. . . . . . . . . . . . . . .  

e|--------------------------------------------------------------------------|
b|--------------------------------------------------------------------------|
g|--------------------------------------------------------------------------|
D|----5---4---2------5---4---2-5-4-2-4-5-4-2--------------------------------|
A|-22---2---2---2-22---2---2-----------------4----9---8---6----6-5-3-5-6-5-3|
E|---------------------------------------------66---6---6---66--------------|
pm .. . . . . . . .. . . . . . . . . . . . . . .. . . . . . .. . . . . . . . 

e|---|
b|---|
g|---|
D|---|
A|---|
E|-5-|
Pm .

Chorus
e|---------------------------------------|
b|---------------------------------------|
g|---------------------------------------|
D|---------------------------------------|
A|-22-7/9/10/9/7/5/3/5/7-22-3-5-6-5-3-22-|
E|-00-5/7/8/7/5/3/1/3/5--00-1-3-4-3-1-00-|
Pm ..                    .. . . . . . ..

there is a solo but can't be bothered putting it in
Tap to rate this tab
# A B C D E F G H I J K L M N O P Q R S T U V W X Y Z