Song name
# A B C D E F G H I J K L M N O P Q R S T U V W X Y Z

Washya - Warrior Of Faith tab

-----------------------------------------------------------------------------
                        Warrior Of Faith - Washya
-----------------------------------------------------------------------------
Drop C (DAFCGC)
Intro
D|-------------------------------|
A|-------------------------------|
F|-------------------------------|
C|-------5------7------3---------|
G|-------3------5------1---3---5-|
C|-00000---0000---0000---0-3-0-5-|
pm .....   ....   ....   .   .  

Verses
D|----------------------------------------------------|
A|----------------------------------------------------|
F|----------------------------------------------------|
C|----------------------------------------------------|
G|-------3h6-3h5---------------5h8-5h7----------------|
C|-00000---------5h6p5-3-00000---------7h8p7-5-00000--|
pm .....                 .....                 ..... 

Chorus
D|---------------------------------------------------|
A|---------------------------------------------------|
F|---------------------------------------------------|
C|-------------------------3-333-6-666---------------|
G|-0-000-3-333h6-666-1-111-1-111-4-444-4-444-2-222-0-|
C|-0-000-3-333h6-666-1-111-------------4-444-2-222-0-|
pm . ...   ...   ...   ...   ...   ...   ...   ... 

Interlude
D|-0-3h4-0-8p7-0-2h3h5p3/7-0-9h10-0-9h10h12/15-17~-|
A|-------------------------------------------------|
F|-------------------------------------------------|
C|-------------------------------------------------|
G|-------------------------------------------------|
C|-------------------------------------------------|
Tap to rate this tab
# A B C D E F G H I J K L M N O P Q R S T U V W X Y Z