Song name
# A B C D E F G H I J K L M N O P Q R S T U V W X Y Z

Washya - Hit The Ground Running tab

-----------------------------------------------------------------------------
                        Hit The Ground Running - Washya
-----------------------------------------------------------------------------
Tuning: Drop B (BF#BEG#C#)
Intro
B|-----------------------------------------|
F#|----------------------------------------|
B|-----------------------------------------|
E|-----------------------------------------|
G#|-00-6/5-00-2/3-00-3/2-00-5/6-00-1111-1--|
C#|-00-6/5-00-2/3-00-3/2-00-5/6-00-1111-1--|
Pm  ..     ..     ..     ..     .. .... . 

Intro Part 2
B|-------------------------|
F#|------------------------|
B|-------------------------|
E|-------------------------|
G#|----1----1--------------|
C#|-00---00---00-1-3-2-0-5-| x 3
Pm  ..   ..   .. . . . . . 

Verses
B|----------------------------------------------|
F#|---------------------------------------------|
B|----------------------------------------------|
E|----------------------------------------------|
G#|----1p0--------------0-----------------------|
C#|-00-----33-2-3-5-0-1---3-2-00-1-0-6-5-0-1-3--|

Chorus
B|------------------------------------------------------------------|
F#|-----------------------------------------------------------------|
B|------------------------------------------------------------------|
E|---------5--------7---------------9--------3--------5-------------|
G#|-123212-3-123212-5-234323-234323-7-345434-1-345434-3-55-77-33-55-|
C#|-123212---123212---234323-234323---345434---345434---55-77-33-55-|
PM  ......   ......   ...... ......   ......   ...... 
Tap to rate this tab
 
# A B C D E F G H I J K L M N O P Q R S T U V W X Y Z