Song name
# A B C D E F G H I J K L M N O P Q R S T U V W X Y Z

Washya - People Remover tab

-----------------------------------------------------------------------------
                            People Remover - Washya
-----------------------------------------------------------------------------
Tuning: Drop C# (C#G#C#F#A#D#) 
Intro
D#|------------------------------------------------|
A#|------------------------------------------------|
F#|------------------------------------------------|
C#|-/8-------------/5------------2-3---------------|
G#|-/6-------------/3------------0-1-3-6-5-1-2-3-2-|
C#|-----0-000-0-00----0-000-0-00-----3-6-5-1-2-3-2-|
pm      . ... . ..    . ... . ..      

Part 2
D#|-----------------------------------|
A#|-----------------------------------|
F#|-----------------------------------|
C#|------3h5------2h3-----------------|
G#|-0--------5--------3----5h6p3------|
C#|-0-00-----5-00-----3-00-5h6p3-0000-|
pm    ..       ..       ..       ....  

Verses
D#|---------------------------------------------------------|
A#|---------------------------------------------------------|
F#|---------------------------------------------------------|
C#|-5-5555----------------------3-3333----------------------|
G#|-3-3333-5-5555-1-1111-0-0000-1-1111-1-1111-4-4444-0-0000-|
C#|--------5-5555-1-1111-0-0000--------1-1111-4-4444-0-0000-|
pm    ....   ....   ....   ....   ....   ....   ....   ....

Chorus
D#|------------------------------------------------------------|
A#|------------------------------------------------------------|
F#|------------------------------------------------------------|
C#|------5h7p3------3h5p2--------------------------------------|
G#|-0----------3----------2----0----1h2p1p0----3h4p3p1-111-111-|
C#|-0-00-------3-00-------2-00-0-00-1h2p1p0-00-3h4p3p1-111-111-|
pm    ..         ..         ..   ..         ..         ... ... 

Solo (short very fast solo)

D#|---12p8h10p8----12p8h10p8-----15p11h13p11----15p11h13p11----15^-15^-15^--|
A#|-------------10-----------10--------------13-------------13--------------|
F#|-------------------------------------------------------------------------|
C#|-------------------------------------------------------------------------|
G#|-------------------------------------------------------------------------|
C#|-------------------------------------------------------------------------|

Legend
^ - bend up
h - Hammer on
p - Pull Off
pm - Palm Mute
/  - slide down
Tap to rate this tab
 
# A B C D E F G H I J K L M N O P Q R S T U V W X Y Z