Song name
# A B C D E F G H I J K L M N O P Q R S T U V W X Y Z

Washya - Kamikaze Suicide tab

-----------------------------------------------------------------------------
                       Kamikaze Suicide - Washya 
-----------------------------------------------------------------------------
Tuning: Drop B (BF#BEG#C#)
Intro   
B|--------------------|------------------|
F#|-------------------|------------------|
B|--------------------|------------------|
E|--------------------|---------44-3-----|
G#|-11-11-11-11-11-11-|-----1-2------1-2-|
C#|-11-11-11-11-11-11-|-1-2--------------|x 3
 Pm .. .. .. .. .. ..x3 . . . . .. . . .     

Verses  
B|------------------------------------------------------------|
F#|-----------------------------------------------------------|
B|------------------------------------------------------------|
E|-----------------------------------------320----------------|
G#|---------------------------------------------320-----------|
C#|-1p00-1p00-0-000000-1p00-1p00-0-2232200----------222322200-|
pm                                 .......          .........

Chorus
B|-------------------------------------|
F#|------------------------------------|
B|----------------7-6------------5-----|
E|----------------x-x------------x-----|
G#|-202032202032--5-4-2025402320-3-335-|
C#|-202032202032------2025402320---335-|

Interlude (played Fast)
B|---------------------------------------|
F#|--------------------------------------|
B|---------------------------------------|
E|-----542---2---------542---2-----------|
G#|--------4---43----------4---43--------|
C#|-22------------2-22------------202320-|
Pm  .. ... . . .. . .. ... . . .. ...... x3           
Tap to rate this tab
# A B C D E F G H I J K L M N O P Q R S T U V W X Y Z