Song name
# A B C D E F G H I J K L M N O P Q R S T U V W X Y Z

Washya - Tgr Translucent Gender Reassignment tab

-----------------------------------------------------------------------------
                    (TGR) Translucent Gender Reassignment - Washya
-----------------------------------------------------------------------------
Tuning: Drop B (BF#BEG#C#)
Intro                 
B|--------------------------------------0~--|
F#|-------------------------------------0~--|
B|--------------99109-------------------0~--|
E|--999-------7-------999---------------0~--|
G#|-----7-6-5-------------7-6-5---------0~--|
C#|-----------------------------777-5-3-0~--|
pm .... . . . . ......... . . . ... . .  

Part 2/Main Riff/ (really cool)
B|----------------------------------------------------------------|
F#|---------------------------------------------------------------|
B|----------------------------------------------------------------|
E|----------------------------------------------------------------|
G#|-----1h2-------------1h2-------------1------3--------3p2-0-1-3-|
C#|-0-00----00-3p2-0-00-----00-3p2-0-00---3-00---2-0-00-----0-1-3-|
PM  . ..    ..     . ..     ..     . ..     ..     . ..     .   

Verses
B|-----------------------------------------------------------------|
F#|----------------------------------------------------------------|
B|-----------------------------------------------------------------|
E|----------------------------------9p8----------------------------|
G#|------3p2------6p5------8p7----------7p6----------------------0-|
C#|-0-00-----0-00-----0-00-----0-00---------0-00-8p7-0-5p4-0-3p2-0-|
pm  . ..     . ..     . ..     . ..         . .. . . . . . . . .    

Chorus (VERY HEAVY ON PALM MUTING PARTS)
B|----------------------------------------------------------|
F#|---------------------------------------------------------|
B|-------------------------------------------------101010\9-|
E|---------------/9~------------------------/7~----101010\9-|
G#|-0-00-2-1-0-2-----0-00-2-1--0-00-2-1-0-2-----00-8-8-8-\7-|
C#|-0-00-2-1-0-2-----0-00-2-1--0-00-2-1-0-2-----00----------|
Pm  . ..             . ..      . ..             .. 
Tap to rate this tab
 
# A B C D E F G H I J K L M N O P Q R S T U V W X Y Z