Song name
# A B C D E F G H I J K L M N O P Q R S T U V W X Y Z

Washya - Trouble In Africa tab

-----------------------------------------------------------------------------
                    Trouble In Africa - Washya
-----------------------------------------------------------------------------
Tuning: Drop D (DADgbe)

First Lead (Main Riff/Intro)
e|-----------------------------------------------------------|
b|-----------------------------------------------------------|
g|-----------------------------------------------------------|
D|-----------5-3-5---------------------7-5-7-----------------|
A|-0-0-5-3-5-----------------0-0-7-5-7-------------------0-0-|
D|-0-0-------------6p5h6p5p3-0-0-------------7-5-7-5-4-5-0-0-|
Pm . .                       . .                         . . 

Second Lead (verses)
e|-------------------------------------------------------------|
b|-------------------------------------------------------------|
g|-----3---3-5-5-----------------------8-7-8-------------------|
D|-------5---------3---3---------------------6-5-6-------------|
A|-0-0-----------6---6----6-5-3----0-0-------------4-3-4-3-0-0-|
D|-0-0--------------------------5--0-0---------------------0-0-|
Pm . .                             . .                     . . 

Third Lead (Chorus)
e|------------------------------------------------------------------|
b|-----------------8-6-8-8/12-12~-----------------------------------|
g|-----------6-4-6--------------------9-7-9-------------------------|
D|-----4-2-4--------------------------------7-5-7-------------------|
A|-0-0----------------------------0-0-------------5-3-5---------0-0-|
D|-0-0----------------------------0-0-------------------3-1-3-1-0-0-|
Pm . .                            . .                           . . 

Fourth Lead (Guitar Solo)                
e|---------------------------------12~------------------------15~--|
b|---------------------------------12~-12b-13~-13----------13------|
g|-----3-2-3/5-3-5-5/8-7-8-8/12-10-----12b--------12-11-12---------|
D|-----------------------------------------------------------------|
A|-0-0-------------------------------------------------------------|
D|-0-0-------------------------------------------------------------|

e|-13.-15.-19~--13t19p15p13t19p15p13t19p15p13------------------------------|
b|-------------------------------------------13t19p15p13t19p15p13t19p15p13-|
g|-------------------------------------------------------------------------|
D|-------------------------------------------------------------------------|
A|-------------------------------------------------------------------------|
D|-------------------------------------------------------------------------|

e|--------------------------------------------------------------------|
b|-----------------------------------------------------------------10-|
g|-13t19p15p13t19p15p13t19p15p13--------------------------------------|
D|-------------------------------13t19p15p13t19p15p13t19p15p13-13~----|
A|--------------------------------------------------------------------|
D|--------------------------------------------------------------------|

e|-----------------------------------------10----------10---------------|
b|-10b-10----------------10-------------------13-12-13----13-12-13------|
g|--------------------------13-12-10-12-13-------------------------12~--|
D|--------13-12-10-12-13------------------------------------------------|
A|----------------------------------------------------------------------|
D|----------------------------------------------------------------------|

Final Lead (Outro)
e|-----------------------------------------------|
b|-----------------------------------9---9-9-12~-|
g|-----------------8-7-8-------7-6-7---7---------|
D|-----4-3-4-------------6-5-6-------------------|
A|-0-0-------6-5-6-------------------------------|
D|-0-0-------------------------------------------|
Pm . . 
Tap to rate this tab
# A B C D E F G H I J K L M N O P Q R S T U V W X Y Z