Song name
# A B C D E F G H I J K L M N O P Q R S T U V W X Y Z

Washya - The Blind Side tab

-----------------------------------------------------------------------------
                    The Blind Side - Washya
-----------------------------------------------------------------------------
Tuning: Drop B (BF#BEG#C#)
Intro
B|--------------------------------------|
F#|-------------------------------------|
B|--------------------------------------|
E|--------------------------------------|
G#|---------3-2---------------3-2-------|
C#|-0-1-0-1-----0-1-5-0-1-0-1-----0-1-5-|

Intro 2
B|---------------------------------------|
F#|--------------------------------------|
B|---------------------------------------|
E|----------5-4---------------5-4--------|
G#|-0-1-0-1-3-2-0-1-5-0-1-0-1-3-2-0-1-5--|
C#|-0-1-0-1-----0-1-5-0-1-0-1-----0-1-5--|

Verses
B|----------------------------------|
F#|---------------------------------|
B|----------------------------------|
E|----------------------------------|
G#|---------3-----------1-------0---|
C#|-1-0-1-0---0-1-0-3-0---0-5-3---1-|
pm  . . . .   . . . . .   . . .   . 

Chorus
B|--------------------------------------------------|
F#|-------------------------------------------------|
B|--------------------------------------------------|
E|--------------------------------------------------|
G#|-1-4-3-1-3-4/7-1-4-1-3-1-1-3-4/7-11-3-4-11-3-4/7-|
C#|-1-4-3-1-3-4/7-1-4-1-3-1-1-3-4/7-11-3-4-11-3-4/7-|

Interlude pt 1 (play 3 times
B|------------------------------------------|
F#|-----------------------------------------|
B|------------------------------------------|
E|------------------------------------------|
G#|---------------4444-2-2-2-2-1111-4-4-4-4-|
C#|-xx//pickslide-4444-2-2-2-2-1111-4-4-4-4-|

interlude pt 2 
B|---------------------------------------------------------|
F#|--------------------------------------------------------|
B|---------------------------------------------------------|
E|---------------------------------------------------------|
G#|-----------------1111-0-0-0-0-2222-1-1-1-1-2222-0-0-0-0-|
C#|-//pickslide-xx--1111-0-0-0-0-2222-1-1-1-1-2222-0-0-0-0-|

Chorus (Palm Muted)
B|--------------------------------------------------|
F#|-------------------------------------------------|
B|--------------------------------------------------|
E|--------------------------------------------------|
G#|-1-4-3-1-3-4/7-1-4-1-3-1-1-3-4/7-11-3-4-11-3-4/7-|
C#|-1-4-3-1-3-4/7-1-4-1-3-1-1-3-4/7-11-3-4-11-3-4/7-|
pm  . . . . . . . . . . . . . . . . .. . . .. . . . 
 
Tap to rate this tab
 
# A B C D E F G H I J K L M N O P Q R S T U V W X Y Z