Song name
# A B C D E F G H I J K L M N O P Q R S T U V W X Y Z

Washya - Tryst tab

-----------------------------------------------------------------------------
                           Tryst - Washya
-----------------------------------------------------------------------------
Tuning: Standard (ebgDAE)
Intro
e|-----------------------------|
b|-----------------------------|
g|-----------------------------|
D|---4-5-4---4-0---4-2---------|
A|-2-------2-----2-----3-2-0-2-|
E|-----------------------------|

Verses
e|---------------------------------------------|
b|---------------------------------------------|
g|-----0---------0-----------5-------0---------|
D|---4---5---4-5-----4-5-4-----4---4---2-------|
A|-2-------2-------2-------2-----2-------3-5---|
E|-------------------------------------------0-|
Pm . . . . . . . . . . . . . . . . . . . . . . 

Chorus
e|-----------------------------------|
b|-----------------------------------|
g|-----------------------------------|
D|------2-4-5------------------------|
A|-4-44-0-2-3-9-99-55-7-9-99-5-4-3-2-|
E|-2-22-------7-77-33-5-7-77-3-2-1-0-|
Tap to rate this tab
 
# A B C D E F G H I J K L M N O P Q R S T U V W X Y Z