Song name
# A B C D E F G H I J K L M N O P Q R S T U V W X Y Z

Washya - Time Is Running Out tab

-------------------------------------------------------------------------------
                        Time is Running Out - Washya
-------------------------------------------------------------------------------
Tuning: Standard (ebgDAE)
Intro A
e|------------------------------------|
b|------------------------------------|
g|----2-------2------2----2b-0h2p0----|
D|-xx-2-xx-xx-2-xx-x-2-xx----------2~-|
A|-xx-0-xx-xx-0-xx-x-0-xx-------------|
E|-xx---xx-xx---xx-x---xx-------------|

Verses
e|--------------------------------------------|
b|--------------------------------------------|
g|--------------------------------------------|
D|------------------------------5p3-----------|
A|---7p5----5-5h7p5---5p3----33---------------|
E|-0-----00---------0-----00--------6p5p3h5p3-|
PM .     ..         .     ..        ......... 

Chorus
e|----------------------------------------------|
b|----------------------------------------------|
g|----------------------------------------------|
D|-777777710666666695555555-5-------------------|
A|-55555558-444444473333333-3-6-7-55-4-5-3333-2-|
E|----------------------------4-5-33-2-3-1111-0-|

Guitar Solo                           
e|---------------------------------11-13----10-13----10-13-12b-12b-12b\--|
b|--------------------------12~-12-------12-------12-------15b-15b-15b\--|
g|-----------------999-1010----------------------------------------------|
D|-777\444/666\999-------------------------------------------------------|
A|-----------------------------------------------------------------------|
E|-----------------------------------------------------------------------|
Tap to rate this tab
 
# A B C D E F G H I J K L M N O P Q R S T U V W X Y Z