Song name
# A B C D E F G H I J K L M N O P Q R S T U V W X Y Z

Washya - Rock And Roll Racer tab

-----------------------------------------------------------------------------
                    Rock and Roll Racer - Washya
-----------------------------------------------------------------------------
Tuning: Standard (ebgDAE)
Intro G,           D
e|-------3-----------2--------------|
b|---------3-----------3------------|
g|-----------3-----------2----------|
D|-----0-----------0--------3-333---|
A|---2-----------2----------1-111-3-|
E|-3-----------3------------------1-|
pm . .         . .                     

Main Riff/Chorus
e|--------------------------------|
b|--------------------------------|
g|--------------------------------|
D|--------------------------------|
A|-------1p0-3-----------1p0-33-5-|
E|-0-0-3-------3-1-0-0-3-----11-3-|
PM . .             . . 

Verses
e|------------------------------------------|
b|------------------------------------------|
g|------------------------------------------|
D|-5-55-77p55/33h5------0h2-2-4/6/4/6-------|
A|-5-55-55-55/33h3-55-7-0h2-2-2/4/2/4-4-3-2-|
E|-----------------33-5---------------2-1-0-|
Tap to rate this tab
 
# A B C D E F G H I J K L M N O P Q R S T U V W X Y Z