Song name
# A B C D E F G H I J K L M N O P Q R S T U V W X Y Z

Washya - Sick tab

-----------------------------------------------------------------------------
                        Sick - Washya
-----------------------------------------------------------------------------
Tuning: Drop B (BF#BEG#C#)
Intro
B|------------------------------------|
F#|-----------------------------------|
B|------------------------------------|
E|----------------3p2-----------------|
G#|-0-0--0h1111-0-----0-1-3-4-6-4-3-1-|
C#|-0-0--0h1111-0-----0-1-3-4-6-4-3-1-|
PM  . .  . .... .     . . . . . . . . 

Verses
B|----------------------------|
F#|---------------------------|
B|----------------------------|
E|----------------------------|
G#|---------------------------|
C#|-0-3p2-0-2-6p5-0-3-5-0-2-3-|
PM  . ... . . ... . . . . . . 

Chorus
B|-----------------------------------------------|
F#|----------------------------------------------|
B|-----------------------------------------------|
E|--8---------------5-----------3--------------4-|
G#|-6-5h6p5-2h3h6p5-3-5h6p5-1-3-1-0-2-3-11-0h1-2-|
C#|---5h6p5-2h3h6p5---5h6h5-1-3---0-2-3-11-0h1---|
Tap to rate this tab
# A B C D E F G H I J K L M N O P Q R S T U V W X Y Z