Song name
# A B C D E F G H I J K L M N O P Q R S T U V W X Y Z

Washya - Subliminal Subversion tab

-----------------------------------------------------------------------------
                        Subliminal Subversion - Washya
-----------------------------------------------------------------------------
Tuning: Drop B (BF#BEG#C#)
Intro
B|-----------------------------------|
F#|----------------------------------|
B|-----------------------------------|
E|-----------------------------------|
G#|-0-0-2p1-0-0-1-0--0-0-2p1-0-0-1-0-|
C#|-0-0-2p1-0-0-1-0--0-0-2p1-0-0-1-0-|
PM  x x     x x   x  x x     x x   x

Verses
B|-----------------------------------|
F#|----------------------------------|
B|-----------------------------------|
E|-----------------------------------|
G#|-0-0-6p5-0-0-3p2--0-0-4p3-0-0-1-0-|
C#|-0-0-6p5-0-0-3p2--0-0-4p3-0-0-1-0-|
PM  x x     x x      x x     x x    

Chorus
B|--------------------------------------------|
F#|-------------------------------------------|
B|--------------------------------------------|
E|--------------------------------------------|
G#|-0-1-2-1-0-6-5-0-1-3-1-0-2-1-0-2-3-1-0-5-6-|
C#|-0-1-2-1-0-6-5-0-1-3-1-0-2-1-0-2-3-1-0-5-6-|
PM  x       x     x       x     x       x   
Tap to rate this tab
# A B C D E F G H I J K L M N O P Q R S T U V W X Y Z