Song name
# A B C D E F G H I J K L M N O P Q R S T U V W X Y Z

Washya - Needle Nose tab

-----------------------------------------------------------------------------
                  Needle nose - Washya 
-----------------------------------------------------------------------------
Tuning: Standard (ebgDAE)
Intro
e|---------------------------------|
b|-1-111-1-------------------------|
g|-2-222-2---------1-111-1---------|
D|-2-222-2---------2-222-2-5-555-5-|
A|---------3-333-3-2-222-2-3-333-3-|
E|---------1-111-1-----------------|x 2

Verses
e|------------------------------------------|
b|------------------------------------------|
g|-----------------1-111-1------------------|
D|-----------------2-222-2---------7-7777-7-|
A|-3-333-3-2-222-2-2-222-2-5-555-5-5-5555-5-|
E|-1-111-1-0-000-0---------3-333-3----------|

Chorus
e|----------------------------------------------------------|
b|----------------------------------------------------------|
g|-3-333-3---------1-111-1---------7-777-77---------2-222-2-|
D|-3-333-3-5-555-5-2-222-2-2-222-2-7-777-77-4-44-44-2-222-2-|
A|-1-111-1-5-555-5-2-222-2-2-222-2-5-555-55-4-44-44-0-000-0-|
E|---------3-333-3---------0-000-0----------2-22-22---------|

Guitar Solo
e|------------------------------------------------------------------------|
b|------------------------------------------------------------------------|
g|-------1----------1-----1-----0-------------------------4---------------|
D|-----2-------0--------2-----2---------3-----1p0---5-------5-------4---4-|
A|---2-------2--------2-----2-------3-------3---------5-------5---4---2-4-|
E|-0-------0------0---------------1---1---1-------3-----3-------2-------2-|
Tap to rate this tab
 
# A B C D E F G H I J K L M N O P Q R S T U V W X Y Z