Song name
# A B C D E F G H I J K L M N O P Q R S T U V W X Y Z

Washya - King Pin tab

-------------------------------------------------------------------------------
                              King Pin - Washya
-------------------------------------------------------------------------------
Tuning: Drop C (DAFCGC)
Intro
D|-------------------------------------|---|
A|-------------------------------------|---|
F|-------------------------------------|---|
C|-0-1-5-3-6/--------------------------|-8-|
G|-0-1-5-3-6/------------------------6-|-6-|
C|-0-1-5-3-6/-5-2-0-2-3-5--7-4-3-4-7---|-6-|
PM . . . . .        

Verses
D|---------------------------------------------------------|
A|---------------------------------------------------------|
F|---------------------------------------------------------|
C|----------------------555555-----------------------77777-|
G|----------------------333333-----------------------55555-|
C|-000-000-0-0-0-111-00--------000-000-0-0-0-111-0-0-------|
PM ... ... . . .     ..        ... ... . . .     . . 

Chorus
D|----------------------------------------------------------------------|
A|----------------------------------------------------------------------|
F|----------------------------------------------------------------------|
C|-----------------------------6*-----------------------------------7-6-5-|
G|-5-2-0-2-3-5-------7-4-3-4-7----44444-4-8-4-7-4-8-4-7-4-8-4-7-8-4-5-4-3-|
C|-5-2-0-2-3-5-55555-7-4-3-4-7----44444-4-8-4-7-4-8-4-7-4-8-4-7-8-4-------|
PM             .....              ..... 
Tap to rate this tab
 
# A B C D E F G H I J K L M N O P Q R S T U V W X Y Z