Song name
# A B C D E F G H I J K L M N O P Q R S T U V W X Y Z

Washya - Received tab

-----------------------------------------------------------------------------
                      Received - Washya
-----------------------------------------------------------------------------
Tuning: Drop C (DAFCGC)
Intro
D|-------------------------|
A|-------------------------|
F|-----3-2---2-----3-------|
C|-------------------------|
G|---------5---6-5---------|
C|-0-2---------------6-5-3-|
PM X X X X X X X X X X X X  

Verses
D|----------------------------------------------------|
A|----------------------------------------------------|
F|----------------------------------------------------|
C|-X-X-X-XXXXX-X-X-X-0-2-0-3-2-0-2-X-X-X-XXXXXX-X-X-X-|
G|-X-X-X-XXXXX-X-X-X-0-2-0-3-2-0-2-X-X-X-XXXXXX-X-X-X-|
C|-X-X-X-XXXXX-X-X-X-0-2-0-3-2-0-2-X-X-X-XXXXXX-X-X-X-|

Chorus
D|-------------------------------------------------|
A|-------------------------------------------------|
F|-------------7777/101010--------------------44---|
C|-------------5555/8-8-8-----------------2---22-0-|
G|-22222-33333-5555/8-8-8-6666-3333-2---2---2-22-0-|
C|-22222-33333-5555/8-8-8-6666-3333-2-2-------22-0-|
Tap to rate this tab
 
# A B C D E F G H I J K L M N O P Q R S T U V W X Y Z