Song name
# A B C D E F G H I J K L M N O P Q R S T U V W X Y Z

Washya - Nimrod tab

-------------------------------------------------------------------------------
                           Nimrod - Washya
-------------------------------------------------------------------------------
Tuning: Drop B (BF#BEG#C#)
Intro
B|----------------------------------|
F#|---------------------------------|
B|----------------------------------|
E|----------------------------------|
G#|---------------------------------|
C#|-0000-00-0000-00-0000-00-0000-00-|x 3
PM  .... .. .... .. .... .. .... ..  

Main Riff
B|-------------------------------------------------------|
F#|------------------------------------------------------|
B|------6-----------------2------------------------------|
E|------------6-----------------2------------------------|
G#|-------6-7---7-6---------2-3---3-2------0h3p0h1h3p1p0-|
C#|-0000-------------0000-------------0000-0h3p0h1h3p1p0-|
PM  ....             ....             .... 

Verses                                        
B|----------------------------------------------|------|
F#|---------------------------------------------|------|
B|----------------------------------------------|------|
E|----------------------------------------------|------|
G#|---------------------------------------3332--|-6665-|
C#|-0-3-0-1-3-1-0-3-0-1-3-1-0-3-0-1-3-1-0-3332--|-6665-|
PM  . . . . . . . . . . . . . . . . . . .     

Chorus
B|----------------------------------------------------|
F#|---------------------------------------------------|
B|----------------------------------------------------|
E|-10101010-------3-333-------5-555-7-777-------------|
G#|-8-88-8--5-555-1-111-3-333-3-333-5-555-8-888-5-555-|
C#|---------5-555-------3-333-------------8-888-5-555-|
Tap to rate this tab
# A B C D E F G H I J K L M N O P Q R S T U V W X Y Z