Song name
# A B C D E F G H I J K L M N O P Q R S T U V W X Y Z

Washya - Siljan tab

-------------------------------------------------------------------------------
                       Siljan - Washya
-------------------------------------------------------------------------------
Tuning: Drop B (BF#BEG#C#)
Intro
B|-------------------------------------------|
F#|------------------------------------------|
B|-------------------------------------------|
E|----3-2------------2h3p2-----2-------------|
G#|-5-----3-5-111-3--------5-3---3p2p0-00021-|
C#|-----------111-3------------------0-00021-|
PM            ... .                    ... 

Verses
B|---------------------------------------------------------------|
F#|--------------------------------------------------------------|
B|---------------------------------------------------------------|
E|------3p2h3p2-3-----5p4h5p4-5-----7p6h7p6-7-5555-888-77-55-3-5-|
G#|---3---------3---5---------5---7---------7-5555-888-77-55-3-5-|
C#|-3-----------3-5-----------5-7-----------7-5555-888-77-55-3-5-|
PM  . .           . .           . .                                    

Chorus
B|-------------------------------------------------------------------|
F#|------------------------------------------------------------------|
B|--2-2-3p2p0----------5p3p0---------------------3p1p0---------------|
E|------------33-3-6-5-------3p0-6p5p3p0-111-333-------3-1-3-1-333-1-|
G#|-----------33-3-6-5-------------------111-333---------------333-1-|
C#|-----------33-3-6-5-------------------111-333---------------333-1-|
PM . .  .....                            ... ...               ... . 
Tap to rate this tab
# A B C D E F G H I J K L M N O P Q R S T U V W X Y Z