Song name
# A B C D E F G H I J K L M N O P Q R S T U V W X Y Z

Washya - Tremillio tab

-------------------------------------------------------------------------------
                            Tremillio - Washya
-------------------------------------------------------------------------------
Tuning: Standard (ebgDAE)
Intro
e|---------------------|
b|---------------------|
g|-3-3-3-2-0-------3b~-|
D|---------------------|
A|-----------5-3-5-----|
E|-----------3-1-3-----|

Verses
e|-------------------------------|
b|-------------------------------|
g|-------------------------------|
D|-------------------------------|
A|----320-------3b----320--------|
E|-00-----1-0-1----00-----5-3-55-|
PM ..     . . .    ..     . . .. 

Chorus
e|-------------------------------------------------|
b|-------------------------------------------------|
g|-------------------------------------------------|
D|-3333---------------7777-6-77-9--------320-------|
A|-1111-5555-333-7777-5555-4-55-7----320-----333-2-|
E|------3333-111-5555-------------00---------111-0-|
PM                                .. ... ...    
Tap to rate this tab
# A B C D E F G H I J K L M N O P Q R S T U V W X Y Z