Song name
# A B C D E F G H I J K L M N O P Q R S T U V W X Y Z

Washya - Hopeful Plunder tab

-------------------------------------------------------------------------------
            Hopeful Plunder - Washya
-------------------------------------------------------------------------------
Tuning: Standard (ebgDAE)
Intro
e|-------0~------------|
b|-------2~------------|
g|-------3~--------<5>-|
D|-------0~------------|
A|-3-3-2-0~-3-3-2------|
E|-1-1-0-0~-1-1-0------|x3

Verses
e|-----------------------------------------|
b|-----------------------------------------|
g|-----------------------------------------|
D|-----------------------------------------|
A|-----2-222-----2-222-2-22-2222-222-2-222-|
E|-12\-0-000-12\-0-000-0-00-0000-000-0-000-|

Chorus
e|----------------------|
b|----------------------|
g|----------------------|
D|------------3---------|
A|----3---5---1---5---6-|
E|-00-1-0-3-0---0-3-0-4-|
PM ..   .   .   .   . 
Tap to rate this tab
# A B C D E F G H I J K L M N O P Q R S T U V W X Y Z