Song name
# A B C D E F G H I J K L M N O P Q R S T U V W X Y Z

Washya - Rhea tab

-----------------------------------------------------------------------------
                         Rhea - Washya
-----------------------------------------------------------------------------
Tuning: Standard (ebgDAE)
Intro
  D,               C,             Em,              F,              G.   
e|-2---------------0---------------0---------------0---------------3-|
b|-3-----2h3p2---2-1-----0h1p0-----0---------------0---------------3-|
g|-2-2h3-------3---0---------------0---------------0---------------4-|
D|-0---------------2-0h2---------2-2-----0h2p0-----3---------------5-|
A|-0---------------3-----------3---2-0h2-------2p0-3-----1h3p1-----5-|
E|-0---------------0---------------0---------------1-1h3-------3h1-3-|

Verses
e|-----------------------------------------------------------|
b|-----------------------------------------------------------|
g|-----------------------------------------------------------|
D|-333333333333333322222222222222222555555577777777333333333-|
A|-333333333333333322222222222222225555555577777777333333333-|
E|-111111111111111100000000000000003333333355555555111111111-|
PM ......................................................... 

Chorus
e|-222-22-22222-------------------------------------------------------------|
b|-333-33-33333-----------2p111-11-11111------------------------------------|
g|-222-22-22222-0h2p0---2---000-00-00000-----0------------------------------|
D|--------------------2-----222-22-22222---2---222-22-22222-----1p0-333-33--|
A|--------------------------333-33-33333-3-----222-22-22222-0h2-----333-33--|
E|---------------------------------------------000-00-00000---------111-11--|

e|---------------------------------|
b|---------------------------------|
g|---------------------------------|
D|-33333---------555-55-55555------|
A|-33333-----1p0-555-55-55555------|
E|-11111-1h3-----333-33-33333-2h3~-|

Guitar Solo (play fast)
e|---------14-15-14-12-14-15-14-12-14-15-14-12----------------------------|
b|-/12~-12-------------------------------------15-14-12-------------------|
g|------------------------------------------------------15-14-12-------12-|
D|---------------------------------------------------------------14-15----|
A|------------------------------------------------------------------------|
E|------------------------------------------------------------------------|

e|-------12-----------------------------------------------------------10~-|
b|-14-15----13-15----------------------9-7-6----------------------8-7-----|
g|----------------14-13-10-------12-11-------8-9-7-------------10---------|
D|-------------------------12-13-------------------9-9-7---8-7------------|
A|-------------------------------------------------------9----------------|
E|------------------------------------------------------------------------|
Tap to rate this tab
 
# A B C D E F G H I J K L M N O P Q R S T U V W X Y Z