Song name
# A B C D E F G H I J K L M N O P Q R S T U V W X Y Z

Washya - Fade To Black tab

-----------------------------------------------------------------------------
              Fade To Black - Metallica
-----------------------------------------------------------------------------
Tuning: Flat (EbBbGbDbAbEb)
Intro
Eb|-------------------------------------------------------------|
Bb|-------------------------------------------------------------|
Gb|-----0---------------0---------------0-----------0-------2---|
Db|---4---4---4---4---4---4---4---4---4---4---4---4---4---2---4-|
Ab|-2-------5---2---2-------5---2---0-------5---0-------4-------|
Eb|-------------------------------------------------------------|

Lead 1
Eb|-------------------------------------------------------------------------|
Bb|------7---7h8h10-8-10-12-10-8-10-12-10-8-7-8-7---8-7----------------7/6--|
Gb|----7---9--------------------------------------9-----9-------7/6-7/6-----|
Db|-/9----------------------------------------------------7-9-9-------------|
Ab|-------------------------------------------------------------------------|
Eb|-------------------------------------------------------------------------|

Eb|------------14h19p14-------17p14-------------------------14h15p14-------|
Bb|-7/9~----15----------15----------15----------------14-16----------15----|
Gb|------16----------------16----------16-------14-16-------------------14-|
Db|---------------------------------------14-16----------------------------|
Ab|------------------------------------------------------------------------|
Eb|------------------------------------------------------------------------|

Eb|-14h15p14----17-15-14----------------------------------------------|
Bb|----------15----------------------------------------------12-13-15-|
Gb|-------------------------------------------------12-13-15----------|
Db|----------------------------------------12-14-15-------------------|
Ab|-------------------------------12-14-15----------------------------|
Eb|----------------------12-13-15-------------------------------------|

Eb|-12-13-15p13h15p13h15p13h15p13----17-|
Bb|-------------------------------15----|
Gb|-------------------------------------|
Db|-------------------------------------|
Ab|-------------------------------------|
Eb|-------------------------------------|

Main Riff (Am, C, G.)
Eb|-0-------0-------0-------0-------3-3---3-------------0-|
Bb|-1-1-------------1-1-------------3---3---------0h1/3\1-|
Gb|-2---2-----0h2p0-0---------0h2p0-0-------------0h2/4\2-|
Db|-2-----2---------2---2-----------0-----------0-------2-|
Ab|-0---------------3-----3---------2---------2---------0-|
Eb|-0---------------0---------------3-------3-----------0-|

Verses ("Now he's Gone........")
Eb|-------------------------------------------------------------|
Bb|-------------------------------------------------------------|
Gb|-5-5-5-5-5-5-2-2-2---------5-5-5---------2-2-2-7/9-99-77-4-2-|
Db|-x-x-x-x-x-x-2-2-2---------5-5-5---------2-2-2-7/9-99-77-4-2-|
Ab|-2-2-2-2-2-2-0-0-0-------5-3-3-3-------5-0-0-0-5/7-77-55-2-0-|
Eb|-------------------0-0-3---------0-0-3-----------------------|
PM  . . . . . .       . . . .       . . . .           .. .. .  

Part 2 ("No one but me..........")
Eb|----------------------------------------|
Bb|----------------------------------------|
Gb|-7/9-9--7/9-12\11-7-77------------------|
Db|-7/9-9--7/9-10\9--7-77-999-777-555-44---|
Ab|-5/7-7--5/7-10\9--5-55----------------4-|
Eb|----------------------------------------|
PM                        ... ... ... .. . 

Just Before Solo (james)
Eb|---------------------------------|
Bb|---------------------------------|
Gb|---------------------------------|
Db|-----5-4-2-------------2---------|
Ab|-2/5-------5-4-2-----4---5-4-2---|
Eb|-----------------2/5-----------4-|

Can't Be Bothered With Kirk's Awesome Solo
Tap to rate this tab
# A B C D E F G H I J K L M N O P Q R S T U V W X Y Z