Song name
# A B C D E F G H I J K L M N O P Q R S T U V W X Y Z

Washya - Contaminated Destruction tab

-----------------------------------------------------------------------------
               Contaminated Destruction - Washya
-----------------------------------------------------------------------------
Tuning: Drop C (DAFCGC)
Intro
D|--------------|
A|--------------|
F|--------------|
C|--------------|
G|-0-0-00-0-0-0-|
C|-0-0-00-0-0-0-|x20

Verses
D|-------------------------------------------------------------------|
A|-------------------------------------------------------------------|
F|-------------------------------------------------------------------|
C|-------------------------------------------------------------------|
G|-5-5-55-5-5-5--0-0-00-0-0-0-5-5-55-5-5-5-5-5-55-5-5-5-0-0-00-0-0-0-|
C|-0-0-00-0-0-0--5-5-55-5-5-5-0-0-00-0-0-0-5-5-55-5-5-5-0-0-00-0-0-0-|
PM . . .. . . .  . . .. . . . . . .. . . . . . .. . . . . . .. . . .

Chorus
D|----------------------------------------------------|
A|----------------------------------------------------|
F|----------------------------------------------------|
C|-------------------5----------------------------7\5-|
G|-0-3-0-2-0-3-0-3-0-3---3---5-----------5~-----0-5\3-|
C|-0-3-0-2-0-3-0-3-0---0---0---0-3-0-5-0----0-3-------|
PM                     .   .   . . . . .    . .  
Tap to rate this tab
# A B C D E F G H I J K L M N O P Q R S T U V W X Y Z