Song name
# A B C D E F G H I J K L M N O P Q R S T U V W X Y Z

Washya - Factory Bonus tab

-------------------------------------------------------------------------------
                Factory Bonus - Washya
-------------------------------------------------------------------------------
Tuning: Drop D (DADgbe)
Intro
e|----------------------------------------------------------|
b|----------------------------------------------------------|
g|----------------------------------------------------------|
D|-------5-------------3-------------9--------------7-------|
A|-----3---6-3-5-----1---4-1-3-----7---10-7-9-----5---8-5-7-|
D|-000-----------000-----------000------------000---------7-|
PM ...           ...           ...            ...       

Verses
e|--------------------------------------------------------------------|
b|--------------------------------------------------------------------|
g|--------------------------------------------------------------------|
D|--------------------------------------------------------------------|
A|-----3---------------------------------1----------------------------|
D|-3-5---5-6-0000-00-000-0000-00-000-1-3---3-4-0000-00-000-00-1-0-1h3-|
PM           .... .. ... .... .. ...           .... .. ... .. . . ... 

Chorus
e|----------------------------------------------|
b|----------------------------------------------|
g|-99\777/99-9-9-----------55-55-555-55---------|
D|-99\777/99-9-9-----------55-55-555-55---------|
A|-77\555/77-7-7-332255-55-33-33-333-33-0232020-|
D|---------------332255-55--------------0232020-|
PM                                      ....... 
Tap to rate this tab
# A B C D E F G H I J K L M N O P Q R S T U V W X Y Z