Song name
# A B C D E F G H I J K L M N O P Q R S T U V W X Y Z

Washya - Darkness Be My Guide tab

-------------------------------------------------------------------------------
       Darkness Be My Guide - Washya
-------------------------------------------------------------------------------
Tuning: Drop D (ebgDAD)
Intro
e|------------------------------------------------------------------|
b|-------3-------3-----3-------3---------5-------5-----5-------5----|
g|-----2-------2---------2-------2-----4-------4---------4-------4--|
D|---4-------4-------4-------4-------6-------6-------6-------6------|
A|-5-------5-------5-------5-------7-------7-------7-------7--------|
D|------------------------------------------------------------------|

Verses
e|-----------------------------------------------------------|
b|-----------------------------------------------------------|
g|-----7-------7-------5-------5-------3-------3-----3-------|
D|-------7-------7-------5-------5-------3-------3-----3-----|
A|---9-------9-------7-------7-------5-------5-------------1-|
D|-9-------9-------7-------7-------5-------5-------1-----1---|
PM . .     . .     . .     . .     . .     . .     .     . . 

Chorus
e|----------------------------------------------------------------------|
b|-333-33-555-55-----------------------------333-33-555-55--------------|
g|-222-22-444-44-----------------------------222-22-444-44--------------|
D|-444-44-666-66-----------------------------444-44-666-66--------------|
A|-555-55-777-77-999-99-777-77-555-55-111-11-555-55-777-77-7h8p7--------|
D|---------------999-99-777-77-555-55-111-11---------------------10p9p7-|
PM               ... .. ... .. ... .. ... .. 
Tap to rate this tab
# A B C D E F G H I J K L M N O P Q R S T U V W X Y Z