Song name
# A B C D E F G H I J K L M N O P Q R S T U V W X Y Z

Washya - Solidified tab

-------------------------------------------------------------------------------
                Solidified - Washya
-------------------------------------------------------------------------------
Tuning: Drop C (DAFCGC)
Intro
D|---------------------------------------------------------|
A|---------------------------------------------------------|
F|---------------------------------------------------------|
C|---------------------------------------------------------|
G|-0-00-0-00-0-00-3-1-0-1-3-00-0-00-0-00-3-1-0-1-3-00-0-00-|
C|-0-00-0-00-0-00-3-1-0-1-3-00-0-00-0-00-3-1-0-1-3-00-0-00-|
PM                . . . . .              . . . . . 

Verses
D|---------------------------------|
A|---------------------------------|
F|---------------------------------|
C|---------------------------------|
G|-0-00-0-00-0-00-0-00-0-00-777-7\-|
C|-0-00-0-00-0-00-0-00-0-00-777-7\-|

Chorus
D|-----------------------------------------------------------------|
A|-----------------------------------------------------------------|
F|---------------------------------8p7p5-5h7p5---------------------|
C|-8p7p5-5h7p5---------------------------------7p5-7-7p5-------555-|
G|-------------7p5-7-7p5-------333-----------------------8p7p5-333-|
C|-----------------------8p7p5-333---------------------------------|
PM                             ...                             ... 
Tap to rate this tab
# A B C D E F G H I J K L M N O P Q R S T U V W X Y Z