Song name
# A B C D E F G H I J K L M N O P Q R S T U V W X Y Z

Washya - Im On My Own tab

-------------------------------------------------------------------------------
                 I'm On My Own - Washya
-------------------------------------------------------------------------------
Tuning: Standard (ebgDAE)
Intro
e|------------------------------------------|
b|------------------------------------------|
g|------------------------------------------|
D|-------10p9-7h9p7-------------------------|
A|------------------9p7-------5/7-3/5-------|
E|-00000----------------00000-3/5-1/3-00000-|
PM .....                .....         .....

Verses
e|------------------------------------------------|
b|------------------------------------------------|
g|------------------------------------------------|
D|------------------------------------------------|
A|-2222222-7899999999999-7p6p4h6p4--888888888-567-|
E|-0000000-5677777777777-----------6666666666-345-|
PM .......    ..........            .........     

Chorus
e|-------------------------------------------------------------------------|
b|-------------------------------------------------------------------------|
g|---------3-4---------------------------------------------4-555-3---------|
D|-2-----4---4-4-3-2-----2p0-3-3-6-5---------------------5---555-3---------|
A|-2---4-----2-4-3-2---2-----3-3-6-5-5-------5---------5-----333-1-2---2-1-|
E|-0-2---------2-1-0-0-------1-1-4-3---3-6-5-3-33333-3-------------0-3-----|
PM   . . . .         . . . .         . . . .   ..... . . . .         . . .  
Tap to rate this tab
# A B C D E F G H I J K L M N O P Q R S T U V W X Y Z