Song name
# A B C D E F G H I J K L M N O P Q R S T U V W X Y Z

Washya - Ice Cold tab

-----------------------------------------------------------------------------
                            Iced Cold - Washya
-----------------------------------------------------------------------------
Tuning: Standard (ebgDAE)
Intro
e|----------------------------------|
b|----------------------------------|
g|----------------------------------|
D|---------------------3-2----------|
A|------3-2----------------5-4---2--|
E|-0000-----5-4-2-0000---------2-0--|
PM ....           ....           . 

Verses 
e|-----------------------------------|
b|-----------------------------------|
g|-----------------------------------|
D|-3----------------3--------4---3---|
A|-1-3-4-2------2-4-1-3------2-3-1-2-|
E|---1-2-0-0000-0-2---1-1111---1---0-|
PM         ....         .... 

Chorus
e|------------------------------------------------|
b|------------------------------------------------|
g|------------------------------------------------|
D|---------5-----3--------9-8-7---------9---------|
A|-4-------3-5-3-1-5------7-6-5-7-6-7-8-7-5-6-7-2-|
E|-2-22222---3-1---3-3333-------5-4-5-6---3-4-5-0-|
PM   .....           ....        
Tap to rate this tab
 
# A B C D E F G H I J K L M N O P Q R S T U V W X Y Z