Song name
# A B C D E F G H I J K L M N O P Q R S T U V W X Y Z

Washya - Destruction Of An Army tab

-----------------------------------------------------------------------------
       Destruction Of An Army - Washya
-----------------------------------------------------------------------------
Tuning: Standard (ebgDAE)
Intro/Main Riff
e|------------------------------------------|
b|------------------------------------------|
g|------------------------------------------|
D|------10-9----7---4-5-------------4-3-----|
A|------8--7----5---2-3-----10-9----2-1-3-2-|
E|-0000------00---0-----000-8--7-00-----1-0-|
PM ....      ..   .     ...      .. 

Verses
e|-------------------------------------------|
b|-------------------------------------------|
g|-------------------------------------------|
D|-------------------------------------------|
A|------8p7----5---2/3-------------2p1-------|
E|-0000-----00---0-----0000-8p7-00-----1-000-|
PM ....     ..   .     ....     ..       ... 

Chorus
e|-------------------------------------------------------------|
b|-------------------------------------------------------------|
g|-------------------------------------------------------------|
D|-7-5---------7-5---5---------5-3---------5-3---3-------------|
A|-----7-8-7-5-----7---7-----------5-6-5-3-----5---5-------222-|
E|-----------------------6-5-3-----------------------4-2-0-000-|
PM                                                         ... 
Tap to rate this tab
# A B C D E F G H I J K L M N O P Q R S T U V W X Y Z