Song name
# A B C D E F G H I J K L M N O P Q R S T U V W X Y Z

Washya - Rattlestar tab

-------------------------------------------------------------------------------
                  RattleStar - Washya
-------------------------------------------------------------------------------
Tuning: D Tuning (DCGFAD) 
Intro/Verses
F|----------------------------------------------0--|
A|---------0------------0---------0-------0-----0--|
D|-------6------------6---------6-----------6---6--|
G|-----8-----8------8-----8---------8---------8-8--|
C|---9----------9-------------9---------9-------9--|
D|-0--------------0---------0---------0---------0--| play many times

Chorus
F|--------------------------------------------------|
A|--------------------------------------------------|
D|--------------------------------------------------|
G|---------5-------------6--6-6-6-6-----------------|
C|-7-7-7-7-3-5-3-3-3-3-6-4--4-4-4-4-3-5-3-3-3-3-4-2-|
D|-5-5-5-5---3-1-1-1-1-4------------1-3-1-1-1-1-2-0-|
Tap to rate this tab
# A B C D E F G H I J K L M N O P Q R S T U V W X Y Z