Song name
# A B C D E F G H I J K L M N O P Q R S T U V W X Y Z

Washya - Lightning Strikes tab

-----------------------------------------------------------------------------
                  lightning Strikes - Washya
-----------------------------------------------------------------------------
Tuning: Standard (ebgDAE)
Intro
e|-----------------|
b|-7h8---7-----9p7-|
g|-----9---7h9-----|
D|-----------------|
A|-----------------|
E|-----------------|x 3

Main Riff                    x16
e|-----------------------------|------------|
b|-----------------------------|------------|
g|-----------------------------|------------|
D|------------7/8----------7/8-|------------|
A|------4/5---5/6----4/5---5/6-|----5-4-3-2-|
E|-//xx-2/3-0-----00-2/3-0-----|-00-3-2-1-0-|
PM          .     ..     .       .. 

Chorus
e|-------------------------------|
b|-------------------------------|
g|-------------------------------|
D|-7-5-4------------8-7----------|
A|-5-3-2-5-7-7777-5-6-5-3-5-5555-|
E|-------3-5-5555-3-----1-3-3333-|
PM           ....           ....

Will add a solo later
Tap to rate this tab
 
# A B C D E F G H I J K L M N O P Q R S T U V W X Y Z