Song name
# A B C D E F G H I J K L M N O P Q R S T U V W X Y Z

Washya - Leather Devine tab

-----------------------------------------------------------------------------
            Leather Devine - Washya
-----------------------------------------------------------------------------
Tuning: Standard (ebgDAE)
Intro
e|-----------------------------------|
b|-------0-------5p4-----------------|
g|-----2-----------------------------|
D|---4---------2-----2p0-------4-5-2-|
A|-5-------5p4-------------4-2-----0-|
E|-----------------------5---------0-|

Main Riff
e|-----------------------------------------------------------------------|
b|-----------------------------------------------------------------------|
g|-----------------------------------------------------------------------|
D|-----------------------------------------------------------------------|
A|--------454--------676--------4--------4--------9109--------4--------4-|
E|-000000-232-000000-454-000000-2-000000-2-000000-787--000000-2-000000-2-|
PM ......     ......     ......   ......   ......      ......   ...... 

Chorus
e|--------------------------------------------------------------|
b|--------------------------------------------------------------|
g|--------------------------------------------------------------|
D|-----------9109-----------------------------5-----------------|
A|--------98-787-9999999999-45-787--------545-3------543--346-2-|
E|-000000-76-----7777777777-23-565-555555-323---0000-32100124-0-|
PM ......        ..........        ......       ....    ..    . 
Tap to rate this tab
# A B C D E F G H I J K L M N O P Q R S T U V W X Y Z