Song name
# A B C D E F G H I J K L M N O P Q R S T U V W X Y Z

Washya - Diamonds tab

-------------------------------------------------------------------------------
                           Diamonds - Washya
-------------------------------------------------------------------------------
Tuning: Standard (ebgDAE)
Main Riff/Chorus/Verses (end on D chord)
e|---------0-0-3-2-0-------------2p0-2--|
b|---------0-0-------------0---3-----3--|
g|-------4---------------2---2-------2--|
D|-----5---------------4----------------|
A|---2---------------5------------------|
E|-0------------------------------------|
Tap to rate this tab
# A B C D E F G H I J K L M N O P Q R S T U V W X Y Z