Song name
# A B C D E F G H I J K L M N O P Q R S T U V W X Y Z

Washya - Crusader tab

-------------------------------------------------------------------------------
                       Crusader - Washya
-------------------------------------------------------------------------------
Tuning: Drop D (EBGDAD) 
Intro
e|------------------------|
b|------------------------|
g|------------------------|
D|------9------5----------|
A|------7------3------5-2-|
D|-0000---0000---0000-5-2-|
PM ****   ****   ****

Verses
e|-----------------------------------------------------|
b|-----------------------------------------------------|
g|-----------------------------------------------------|
D|---------------------77\5/7\5/7/8------------------2-|
A|------3p2p0h2/5------55\3/5\3/5/6------3p2p0h2p0h2---|
D|-0000-----------0000--------------0000---------------|
PM ****           ****              **** 

Chorus
e|------------------------------------------------|
b|------------------------------------------------|
g|------------------------------------------------|
D|-------------------------3333-7777--------------|
A|-3p2p0-3333-2-3/6p5-1111-1111-5555-77787-333-55-|
D|-------3333-2-3/6p5-1111-----------77787-333-55-|
PM *****              ****                 *** ** 
Tap to rate this tab
# A B C D E F G H I J K L M N O P Q R S T U V W X Y Z