Song name
# A B C D E F G H I J K L M N O P Q R S T U V W X Y Z

Washya - Dark Forces tab

-----------------------------------------------------------------------------
               Dark Forces - Washya
-----------------------------------------------------------------------------
Tuning: Standard (ebgDAE)
Intro 
e|--------------|
b|--------------|
g|--------------|
D|--------------|
A|-----0-555443-|
E|-3-5---333221-|
pm * * 

Verses
e|-------------------------------------------------------|
b|-------------------------------------------------------|
g|-------------------------------------------------------|
D|----4----4----4\3----5----5----5\4----6----6----6\5h7~-|
A|----4----4----4\3----5----5----5\4----6----6----6\5----|
E|-22---22---22-----33---33---33-----44---44---44--------|
PM **   **   **     **   **   **     **   **   ** 

Chorus
e|-----------------------------------------------------|
b|-----------------------------------------------------|
g|-------2---------------------------------------------|
D|-3-2-1-2-5-----------5-------7-------5---------------|
A|-3-2-1-0-3-3-5-------3-------5-------3-------5-4-3-2-|
E|-----------1-3-0-0-0---0-0-0---0-0-0---0-0-0-3-2-1-0-|
PM               * * *   * * *   * * *   * * * 
Tap to rate this tab
# A B C D E F G H I J K L M N O P Q R S T U V W X Y Z