Song name
# A B C D E F G H I J K L M N O P Q R S T U V W X Y Z

Washya - Versatility Overhaul tab

-----------------------------------------------------------------------------
             Versatility Overhaul - Washya
-----------------------------------------------------------------------------
Tuning: D Tuning (DGCFAD)
Intro
D|---15b-15b-13b-------------------------------------|
A|---17b-17b-15b-15b-15b-13b-------------10b-10b-----|
F|---------------17b-17b-15b-13b-13b-15b-12b-12bh14~-|
G|---------------------------15b-15b-17b-------------|
C|---------------------------------------------------|
D|-0-------------------------------------------------|
PM * 

Main Riff
D|------------------------------------------------------------------------|
A|------------------------------------------------------------------------|
F|------------------------------------------------------------------------|
G|-----------------------------1-----3----------------------------1p0-----|
C|-------------------------1-3---3-1---5-4-2------------------1-3-----3-1-|
D|-0-0-0-0-0-0-0-0-0-0-0-0-------------------4-5-4--0-0-0-0-0-------------|
PM * * * * * * * * * * * *                          * * * * * 

D|------------------------------------------------------------------------|
A|------------------------------------------------------------------------|
F|------------------------------------------------------------------------|
G|-----1p0---------------------------------1-----3------------------------|
C|-1-3-----3-1-------------------------1-3---3-1---5-4-2------------------|
D|-------------0-0-0-0-0-0-0-0-0-0-0-0-------------------4-5-4--0-0-0-0-0-|
PM             * * * * * * * * * * * *                          * * * * * 

Verses
D|---------------------------------------------------|
A|---------------------------------------------------|
F|---------------------------------------------------|
G|-----------------------------------------------3---|
C|-8-5-------------------------------------------1-3-|
D|-6-3-000-5-2-3-5-5-2-3-5-5-2-3-5-2-3-5-5-2-3-5---1-|
PM     *** * * * * * * * * * * * * * * * * * * *

Chorus
D|-------------------------------------|
A|-------------------------------------|
F|-------------------------------------|
G|----7---8~-5---------------------3---|
C|-55---5------8-7-5-3-7-5-3-3-3-3-1-3-|
D|---------------------5-3-1-1-1-1---1-|
PM                         * * * * 
Tap to rate this tab
# A B C D E F G H I J K L M N O P Q R S T U V W X Y Z