Song name
# A B C D E F G H I J K L M N O P Q R S T U V W X Y Z

Washya - Electric Business tab

-------------------------------------------------------------------------------
                       Electric Business - Washya
-------------------------------------------------------------------------------
Tuning: Standard (ebgDAE)
Intro
e|-------------------|
b|-------------------|
g|-------------------|
D|-----3-1h3p1-------|
A|-2-5-1-------3-1-2-|
E|-0-3-------------0-|

Verses
e|--------------------|
b|--------------------|
g|--------------------|
D|-0-4-2-0--0-2-4-2-0-|
A|-0-4-2-0--0-2-4-2-0-|
E|--------------------|
PM *   *    * *     *   

Chorus
e|--------------------------------------|
b|--------------------------------------|
g|--------------------------------------|
D|-----99-7-9-7----999-77-55----3/5\3---|
A|-222-77-5-7-5-77-777-55-33-55-1/3\1-2-|
E|-000----------55-----------33-------0-|
Tap to rate this tab
# A B C D E F G H I J K L M N O P Q R S T U V W X Y Z