Song name
# A B C D E F G H I J K L M N O P Q R S T U V W X Y Z

Washya - Speed Of Death tab

-------------------------------------------------------------------------------
                    Speed Of Death - Washya
-------------------------------------------------------------------------------
Tuning: Standard (ebgDAE)
Intro
e|---------------------------------|
b|---------------------------------|
g|---------------------------------|
D|---------------------------------|
A|-2---1---1h3---1-3-------1---1-2-|
E|-0-3---3-----3-----3-1-3---3---0-|
PM   * * * *** * * * * * * * * * 

Verses
e|-----------------------------------------|
b|-----------------------------------------|
g|-----------------------------------------|
D|-----------------------------------------|
A|-------1---1-3333-5555---3-----5-3-333-2-|
E|-3-1-3---3---1111-3333-5---5-3-----111-0-|
PM * * * * * *           * * * * * *  

Chorus
e|----------------------------------------|
b|----------------------------------------|
g|----------------------------------------|
D|---9-7----------------------------------|
A|-2-7-5-999-777-666-6/888888-----4-------|
E|-0-----------------4/666666-6-8---6-4-6-|
PM       *** *** ***          * * * * * * 
Tap to rate this tab
# A B C D E F G H I J K L M N O P Q R S T U V W X Y Z