Song name
# A B C D E F G H I J K L M N O P Q R S T U V W X Y Z

Washya - Fright Night tab

-----------------------------------------------------------------------------
                 Fright Night - Washya
-----------------------------------------------------------------------------
Tuning: Drop C (DAFCGC)
Intro
D|-------------------|
A|-------------------|
F|-------------------|
C|-----------3-2-----|
G|-0-6-5-1-3-1-0-3-5-|
C|-0-6-5-1-3-----3-5-|

Verses
D|-------------------------------------------------------------|
A|-------------------------------------------------------------|
F|-------------------------------------------------------------|
C|-------------------------------------------------------------|
G|----------3h5----------6p5----------2h3----------2h3-6p5-3h5-|
C|-00000000-----00000000-----00000000-----00000000-------------|
PM ********     ********     ********     ******** 

Chorus
D|------------------------------------------------------------|
A|------------------------------------------------------------|
F|------------------------------------------------------------|
C|-------------------------8888888/10101010\77777777----------|
G|-2-3-6-5-3-3-5-6-5-3-2-3-6666666/88888888\55555555-33335555-|
C|-2-3-6-5-3-3-5-6-5-3-2-3---------------------------33335555-|
PM * * * * * * * * * * * *                           ********
Tap to rate this tab
# A B C D E F G H I J K L M N O P Q R S T U V W X Y Z