Song name
# A B C D E F G H I J K L M N O P Q R S T U V W X Y Z

Washya - Opiate Deficiancy tab

-------------------------------------------------------------------------------
               Opiate Deficiency - Washya
-------------------------------------------------------------------------------
Tuning: Drop C (DAFCGC)
D|--------------------------------------------------------------|
A|--------------------------------------------------------------|
F|--------------------------------------------------------------|
C|-----------------------------7-5------------------------------|
G|------666556-666556-555665-5-5-3-566556-666556-666556-5-8-3-6-|
C|-//xx-666556-666556-555665-5-----566556-666556-666556-5-8-3-6-|

Verses
D|----------------------------------|
A|----------------------------------|
F|----------------------------------|
C|----2-2---2---2-2-----3p2p0-----2-|
G|----2-2---2---2-2---2-------2h3---|
C|-00-----0---0-----0---------------|
PM **     *   *     * 

Chorus
D|-----------------------------------------------------------------------|
A|-----------------------------------------------------------------------|
F|-----------------------------------------------------------------------|
C|------------------------5555-8888--------------------------------------|
G|------66666666-33333333-3333-6666-666666-1111-33-5-3-5-6-5-3-5-3-1-3-0-|
C|-//xx-66666666-33333333-----------666666-1111-33-5-3-5-6-5-3-5-3-1-3-0-|
PM                                                 * * * * * * * * * * 
Tap to rate this tab
 
# A B C D E F G H I J K L M N O P Q R S T U V W X Y Z