Song name
# A B C D E F G H I J K L M N O P Q R S T U V W X Y Z

Washya - Therion tab

-------------------------------------------------------------------------------
                Therion - Washya
-------------------------------------------------------------------------------
Tuning: Standard (ebgDAE)
Intro
e|---------------------------------------------------------------------------|
b|---------------------------------------------------------------------------|
g|---------------------------------------------------------------------------|
D|---------------------------------------------------------------------------|
A|-2-2-2-2-2-2-2-2-2-2-2-2-2-2-2-2-4-5-4-5-2-2-2-2-2-2-2-2-2-2-2-2-4-5-4-5-2-|
E|-0-0-0-0-0-0-0-0-0-0-0-0-0-0-0-0-2-3-2-3-0-0-0-0-0-0-0-0-0-0-0-0-2-3-2-3-0-|
PM * * * * * * * * * * * * * * * *         * * * * * * * * * * * *         * 

Verses
e|-------------------------------------|
b|-------------------------------------|
g|-------------------------------------|
D|-6-3---------------------------3h5p3-|
A|-----5h6p5-----------------5h6-------|
E|-----------2-2-2-2-2-2-2-2-----------|
PM           * * * * * * * *  

Chorus
e|------------------------------------------------|
b|------------------------------------------------|
g|------------------------------------------------|
D|-----8-7-7-7-7-7-7-7-8-7---------------88-------|
A|-5-7-6-5-5-5-5-5-5-5-6-5-7-8-5-5-5-5-5-66-7-5-7-|
E|-3-5---------------------5-6-3-3-3-3-3----5-3-5-|
PM                             * * * * *     
Tap to rate this tab
# A B C D E F G H I J K L M N O P Q R S T U V W X Y Z