Song name
# A B C D E F G H I J K L M N O P Q R S T U V W X Y Z

Washya - Lethal Weapon tab

-----------------------------------------------------------------------------
                  Lethal Weapon - Washya
-----------------------------------------------------------------------------
Tuning: Standard (ebgDAE)
Intro
e|-----------------------------------------|
b|-----------------------------------------|
g|-----------------------------------------|
D|-------------------------------------10~-|
A|-------------------------------10h12-----|
E|-0-0-0-0-0-0-0-0-0-0-0-0-0-0-0-----------|x10
PM * * * * * * * * * * * * * * *

Part 2
e|---------------------------------------------|
b|---------------------------------------------|
g|---------------------------------------------|
D|-------------------------------12------------|
A|----------------------------------12-10-9/---|
E|-0-0-0-0-0-0-0-0-0-0-0-0-0-0-0---------------|x1
PM * * * * * * * * * * * * * * *

Main Riff (very Fast) (Chorus)
e|-------------------------------------------------------------|
b|-------------------------------------------------------------|
g|-------------------------------------------------------------|
D|-----------4-2---------------------------5-3-----------------|
A|-----4-2-5-----5-4-2-----55535-----5-3-6-----6-5-3-----66646-|
E|-2-5-----------------4-5-33313-3-6-----------------5-6-44424-|
PM * * * * * * * * * * * *       * * * * * * * * * * * * 

Verses
e|-----------------------------------------------------------|
b|-----------------------------------------------------------|
g|-----------------------------------------------------------|
D|-----------------------2h4h5-----------------------6h8p6p4-|
A|---------------------4---------------------------5---------|
E|-000-0-0-0-0-0-0-0-0---------000-0-0-0-0-0-0-0-0-----------|
PM *** * * * * * * * *         *** * * * * * * * * 

Guitar Solo
e|---------------------------------------------------------15p12h13-15~|
b|---------------------------------------------------12h13-------------|
g|----------------------------9-7-9h10p9/12p11h12/15-------------------|
D|----------5---3-5-3-5/7-6-7------------------------------------------|
A|-//5~-3-5---5--------------------------------------------------------|
E|---------------------------------------------------------------------|
PM   *  * * * * * * * * * * * * *                

e|-15-15-15-15p12----15-15-15-15-15p12----17-17-17-17-17p13----17-17-17-17-|
b|----------------14-------------------14-------------------15-------------|
g|-------------------------------------------------------------------------|
D|-------------------------------------------------------------------------|
A|-------------------------------------------------------------------------|
E|-------------------------------------------------------------------------|

e|-17p----------------------------------17b-17b-17b-17-17-17p14p12h17-17-17-|
b|-----15-14-12h14p12-------------14-15-------------------------------------|
g|--------------------14-12----12-------------------------------------------|
D|--------------------------14----------------------------------------------|
A|--------------------------------------------------------------------------|
E|--------------------------------------------------------------------------|

e|-17p14p12-13t19p16p13t19p16p13t20p16p13/13p12h13/15p14h15/17-19b-19b-19b~-|
b|--------------------------------------------------------------------------|
g|--------------------------------------------------------------------------|
D|--------------------------------------------------------------------------|
A|--------------------------------------------------------------------------|
E|--------------------------------------------------------------------------|
Tap to rate this tab
 
# A B C D E F G H I J K L M N O P Q R S T U V W X Y Z