Song name
# A B C D E F G H I J K L M N O P Q R S T U V W X Y Z

Washya - 1983 tab

-----------------------------------------------------------------------------
                         1983 - Washya
-----------------------------------------------------------------------------
Tuning: Full Step Down (DCGFAD)
Intro
D|----------------------------------------|
A|----------------------------------------|
F|----------------------------------------|
G|----------------------------------------|
C|-4--------------------4-----------------|
D|-22-22-2-2-2-22-22222-22-22-2-2-2-22222-|
PM  * ** * * * ** *****  * ** * * * ***** 

Verses
D|----------------------------------------------------------|
A|----------------------------------------------------------|
F|----------------------------------------------------------|
G|----------------------------------------------------------|
C|----------------------------------------------------------|
D|-11-11-1-1-11-11111-11-11-1-1-11-11111-11-11-1-1-11-11111-|
PM ** ** * * ** ***** ** ** * * ** ***** ** ** * * ** ***** 

Chorus
D|-----------------------------------------------|
A|-----------------------------------------------|
F|-----------------------------------------------|
G|----5-7---------5-7-10-9-7-----5-4-------3-2---|
C|-22-3-5-5-8-7-5-3-5-8--7-5-5-7-3-2-5-3-5-1-0-2-|
D|-00-----3-6-5-3------------3-5-----3-1-3-----0-|
Tap to rate this tab
 
# A B C D E F G H I J K L M N O P Q R S T U V W X Y Z