Song name
# A B C D E F G H I J K L M N O P Q R S T U V W X Y Z

Washya - Flash tab

-------------------------------------------------------------------------------
                            Flash - Washya
-------------------------------------------------------------------------------
Tuning: Standard (ebgDAE)
Intro
e|---------------------------------------------------------------------|
b|---------------------------------------------------------------------|
g|-2-2---3p2p0-----2-2---3p2p0-----------------------------------------|
D|-2-2-0-------2p0-2-2-0-------2p0-------3p2p0-----------3p2p0---------|
A|-0-0-------------0-0-------------2-2-0-------2p0-2-2-0-------2p0-2-2-|
E|---------------------------------0-0-------------0-0-------------0-0-|

Verses
e|----------------------------------------------------|
b|----------------------------------------------------|
g|----------------------------------------------------|
D|-------6-5-3---------------------------6-3----------|
A|-2-2-0-------5-3-2-2-------------2-2-0-----6-5-3-55-|
E|-0-0-------------0-0-0-6-5-3-5-3-0-0-------------33-|

Chorus
e|-------------------------------------|
b|-------------------------------------|
g|-------------------------------------|
D|---------5-7-8-7-5------------33-----|
A|-444-8-7-3-5-6-5-3-7-5-77-3-5-11-5-3-|
E|-222-6-5-----------5-3-55-1-3----3-1-|
Tap to rate this tab
# A B C D E F G H I J K L M N O P Q R S T U V W X Y Z