Song name
# A B C D E F G H I J K L M N O P Q R S T U V W X Y Z

Washya - Mercury Rising tab

-----------------------------------------------------------------------------
                     Mercury Rising - Washya
-----------------------------------------------------------------------------
Tuning: Standard (ebgDAE)
Intro (fast)
e|--------------------|
b|--------------------|
g|--------------------|
D|--------------------|
A|--------------------|
E|-22-0-22-0-22-22222-|x20
PM ** * ** * ** *****  

Verses
e|--------------------|
b|--------------------|
g|--------------------|
D|--------------------|
A|-22-3-22-3-22-22222-|
E|-00-1-00-1-00-00000-|
PM ** * ** * ** ***** 

Just Before Chorus
e|-----------------------------------------|
b|-----------------------------------------|
g|-----------------------------------------|
D|----4----4-----------4----4--------------|
A|----4----4-----------4----4------------2-|
E|-22---22---222222-22---22---222222-3p2p0-|
PM **   **   ****** **   **   ******   

Chorus
e|-----------------------------------------------------------------------|
b|-----------------------------------------------------------------------|
g|-----------------------------------------------------------------------|
D|-5-7-5/10-9------------------------------------------------------------|
A|-3-5-3/8--7-5-7-22-33-22-22-22-22222-4-7-8-4-44------------------------|
E|------------3-5-00-11-00-00-00-00000-2-5-6-2-22-2-22-2-22-2h3p0h2-2-22-|
PM                                                * ** * ** * * * * * ** 

Guitar Solo
e|-------------------------------------------------------------------------|
b|-------------------------------------------------------------------------|
g|---------------------------------------------11------11p9------------12~-|
D|-7-9-----7-9b-9b-9b-7h9h10p9p7h9h10p9p7h9-9b----9h11------11p9h11-13-----|
A|-----7-9-----------------------------------------------------------------|
E|-------------------------------------------------------------------------|

e|-----------------------------------12h17p15p12h17p15p12h17-17b-17b-|
b|-----12h17p15p12h17p15p12h17p15p12---------------------------------|
g|-12~---------------------------------------------------------------|
D|-------------------------------------------------------------------|
A|-------------------------------------------------------------------|
E|-------------------------------------------------------------------|

e|-17h18p15h17p15p14h16p14p12h14p12p11h13p12p10-----------------------------|
b|----------------------------------------------7-8-------------------------|
g|--------------------------------------------------9-7---7-----------------|
D|------------------------------------------------------9---9-7---7---------|
A|--------------------------------------------------------------9---9-7-----|
E|----------------------------------------------------------------------9-7-|

e|----13t20p17p13t20p17p13t20p17p13t20p17p13-----------------|
b|-------------------------------------------15p12-----------|
g|-------------------------------------------------14p12-14~-|
D|-----------------------------------------------------------|
A|-----------------------------------------------------------|
E|-5~--------------------------------------------------------|
Tap to rate this tab
# A B C D E F G H I J K L M N O P Q R S T U V W X Y Z